ISO-10303-21;
HEADER;
FILE_DESCRIPTION (( 'STEP AP214' ),
    '1' );
FILE_NAME ('BS1ISOK8089 FULLVAC.STEP',
    '2024-05-21T15:17:20',
    ( '' ),
    ( '' ),
    'SwSTEP 2.0',
    'SolidWorks 2017',
    '' );
FILE_SCHEMA (( 'AUTOMOTIVE_DESIGN' ));
ENDSEC;

DATA;
#1 =( GEOMETRIC_REPRESENTATION_CONTEXT ( 3 ) GLOBAL_UNCERTAINTY_ASSIGNED_CONTEXT ( ( #203 ) ) GLOBAL_UNIT_ASSIGNED_CONTEXT ( ( #141, #251, #138 ) ) REPRESENTATION_CONTEXT ( 'NONE', 'WORKASPACE' ) );
#2 = CARTESIAN_POINT ( 'NONE',  ( 12.00000000000001100, 0.0000000000000000000, 52.50000000000000000 ) ) ;
#3 = CONICAL_SURFACE ( 'NONE', #59, 54.25000000000000700, 0.7853981633974344000 ) ;
#4 = ORIENTED_EDGE ( 'NONE', *, *, #316, .T. ) ;
#5 = DIRECTION ( 'NONE',  ( 0.0000000000000000000, 0.0000000000000000000, 1.000000000000000000 ) ) ;
#6 = AXIS2_PLACEMENT_3D ( 'NONE', #9, #36, #62 ) ;
#7 = ORIENTED_EDGE ( 'NONE', *, *, #228, .T. ) ;
#8 = ORIENTED_EDGE ( 'NONE', *, *, #49, .F. ) ;
#9 = CARTESIAN_POINT ( 'NONE',  ( 4.500000000000003600, 36.60000000000000100, 0.0000000000000000000 ) ) ;
#10 = SURFACE_STYLE_USAGE ( .BOTH. , #197 ) ;
#11 = EDGE_CURVE ( 'NONE', #331, #331, #55, .T. ) ;
#12 = DIRECTION ( 'NONE',  ( -1.000000000000000000, 0.0000000000000000000, 0.0000000000000000000 ) ) ;
#13 = PLANE ( 'NONE',  #6 ) ;
#14 = AXIS2_PLACEMENT_3D ( 'NONE', #148, #87, #182 ) ;
#15 = CIRCLE ( 'NONE', #98, 54.24999999999999300 ) ;
#16 = FACE_BOUND ( 'NONE', #150, .T. ) ;
#17 = CARTESIAN_POINT ( 'NONE',  ( 0.0000000000000000000, 41.50000000000000000, 0.0000000000000000000 ) ) ;
#18 = EDGE_LOOP ( 'NONE', ( #303 ) ) ;
#19 = CARTESIAN_POINT ( 'NONE',  ( 10.00000000000000900, 52.50000000000000000, 0.0000000000000000000 ) ) ;
#20 = PRODUCT_DEFINITION_SHAPE ( 'NONE', 'NONE',  #22 ) ;
#21 = SHAPE_DEFINITION_REPRESENTATION ( #20, #254 ) ;
#22 = PRODUCT_DEFINITION ( 'UNKNOWN', '', #170, #144 ) ;
#23 = FACE_OUTER_BOUND ( 'NONE', #153, .T. ) ;
#24 = DIRECTION ( 'NONE',  ( -1.000000000000000000, 0.0000000000000000000, 0.0000000000000000000 ) ) ;
#25 = AXIS2_PLACEMENT_3D ( 'NONE', #298, #304, #300 ) ;
#26 = CIRCLE ( 'NONE', #25, 41.50000000000000000 ) ;
#27 = CARTESIAN_POINT ( 'NONE',  ( 0.0000000000000000000, 0.0000000000000000000, 54.25000000000000700 ) ) ;
#28 = EDGE_LOOP ( 'NONE', ( #252 ) ) ;
#29 = CLOSED_SHELL ( 'NONE', ( #154, #66, #52, #301, #131, #73, #276, #90, #156, #305, #183, #271, #117, #76 ) ) ;
#30 = EDGE_CURVE ( 'NONE', #44, #44, #217, .T. ) ;
#31 = CARTESIAN_POINT ( 'NONE',  ( 0.0000000000000000000, 0.0000000000000000000, 0.0000000000000000000 ) ) ;
#32 = CIRCLE ( 'NONE', #14, 54.66124860799443000 ) ;
#33 = PRESENTATION_STYLE_ASSIGNMENT (( #10 ) ) ;
#34 = DIRECTION ( 'NONE',  ( 1.000000000000000000, 0.0000000000000000000, 0.0000000000000000000 ) ) ;
#35 = FACE_OUTER_BOUND ( 'NONE', #18, .T. ) ;
#36 = DIRECTION ( 'NONE',  ( -1.000000000000000000, 0.0000000000000000000, 0.0000000000000000000 ) ) ;
#37 = DIRECTION ( 'NONE',  ( -1.000000000000000000, 0.0000000000000000000, 0.0000000000000000000 ) ) ;
#38 = CARTESIAN_POINT ( 'NONE',  ( 3.199999999999869600, 0.0000000000000000000, 0.0000000000000000000 ) ) ;
#39 = FACE_OUTER_BOUND ( 'NONE', #295, .T. ) ;
#40 = DIRECTION ( 'NONE',  ( -0.0000000000000000000, 0.0000000000000000000, -1.000000000000000000 ) ) ;
#41 = AXIS2_PLACEMENT_3D ( 'NONE', #233, #37, #127 ) ;
#42 = DIRECTION ( 'NONE',  ( -1.000000000000000000, 0.0000000000000000000, 0.0000000000000000000 ) ) ;
#43 = CARTESIAN_POINT ( 'NONE',  ( 12.00000000000001100, 0.0000000000000000000, 0.0000000000000000000 ) ) ;
#44 = VERTEX_POINT ( 'NONE', #134 ) ;
#45 = MANIFOLD_SOLID_BREP ( 'collerette tube', #29 ) ;
#46 = CIRCLE ( 'NONE', #259, 44.75000000000000000 ) ;
#47 = DIRECTION ( 'NONE',  ( -1.000000000000000000, -0.0000000000000000000, -0.0000000000000000000 ) ) ;
#48 = ORIENTED_EDGE ( 'NONE', *, *, #164, .F. ) ;
#49 = EDGE_CURVE ( 'NONE', #313, #313, #319, .T. ) ;
#50 = CARTESIAN_POINT ( 'NONE',  ( 0.0000000000000000000, 0.0000000000000000000, 0.0000000000000000000 ) ) ;
#51 =( GEOMETRIC_REPRESENTATION_CONTEXT ( 3 ) GLOBAL_UNCERTAINTY_ASSIGNED_CONTEXT ( ( #82 ) ) GLOBAL_UNIT_ASSIGNED_CONTEXT ( ( #100, #80, #167 ) ) REPRESENTATION_CONTEXT ( 'NONE', 'WORKASPACE' ) );
#52 = ADVANCED_FACE ( 'NONE', ( #121, #39 ), #302, .T. ) ;
#53 = ORIENTED_EDGE ( 'NONE', *, *, #310, .F. ) ;
#54 = VERTEX_POINT ( 'NONE', #2 ) ;
#55 = CIRCLE ( 'NONE', #201, 41.50000000000000000 ) ;
#56 = CARTESIAN_POINT ( 'NONE',  ( 4.500000000000003600, 0.0000000000000000000, 44.75000000000000000 ) ) ;
#57 = CARTESIAN_POINT ( 'NONE',  ( 3.199999999999869600, 0.0000000000000000000, 55.00000000000000000 ) ) ;
#58 = EDGE_LOOP ( 'NONE', ( #194 ) ) ;
#59 = AXIS2_PLACEMENT_3D ( 'NONE', #83, #202, #147 ) ;
#60 = PRODUCT ( 'BS1ISOK8089 FULLVAC', 'BS1ISOK8089 FULLVAC', '', ( #291 ) ) ;
#61 = ORIENTED_EDGE ( 'NONE', *, *, #310, .T. ) ;
#62 = DIRECTION ( 'NONE',  ( 0.0000000000000000000, 0.0000000000000000000, 1.000000000000000000 ) ) ;
#63 = ORIENTED_EDGE ( 'NONE', *, *, #30, .T. ) ;
#64 = EDGE_CURVE ( 'NONE', #155, #155, #243, .T. ) ;
#65 = DIRECTION ( 'NONE',  ( 0.0000000000000000000, 0.0000000000000000000, 1.000000000000000000 ) ) ;
#66 = ADVANCED_FACE ( 'NONE', ( #268, #186 ), #283, .T. ) ;
#67 = FACE_BOUND ( 'NONE', #247, .T. ) ;
#68 = PLANE ( 'NONE',  #218 ) ;
#69 = DIRECTION ( 'NONE',  ( 0.0000000000000000000, 0.0000000000000000000, 1.000000000000000000 ) ) ;
#70 = VERTEX_POINT ( 'NONE', #287 ) ;
#71 = DIRECTION ( 'NONE',  ( 1.000000000000000000, -0.0000000000000000000, -0.0000000000000000000 ) ) ;
#72 = AXIS2_PLACEMENT_3D ( 'NONE', #84, #173, #124 ) ;
#73 = ADVANCED_FACE ( 'NONE', ( #125, #149 ), #101, .T. ) ;
#74 = ORIENTED_EDGE ( 'NONE', *, *, #232, .F. ) ;
#75 = DIRECTION ( 'NONE',  ( -1.000000000000000000, 0.0000000000000000000, 0.0000000000000000000 ) ) ;
#76 = ADVANCED_FACE ( 'NONE', ( #226, #332 ), #13, .F. ) ;
#77 = CYLINDRICAL_SURFACE ( 'NONE', #230, 52.50000000000000000 ) ;
#78 = EDGE_CURVE ( 'NONE', #318, #318, #85, .T. ) ;
#79 = PRODUCT_RELATED_PRODUCT_CATEGORY ( 'part', '', ( #60 ) ) ;
#80 =( NAMED_UNIT ( * ) PLANE_ANGLE_UNIT ( ) SI_UNIT ( $, .RADIAN. ) );
#81 = EDGE_LOOP ( 'NONE', ( #219 ) ) ;
#82 = UNCERTAINTY_MEASURE_WITH_UNIT (LENGTH_MEASURE( 1.000000000000000100E-005 ), #100, 'distance_accuracy_value', 'NONE');
#83 = CARTESIAN_POINT ( 'NONE',  ( 0.0000000000000000000, 0.0000000000000000000, 0.0000000000000000000 ) ) ;
#84 = CARTESIAN_POINT ( 'NONE',  ( 0.7500000000000145400, 0.0000000000000000000, 0.0000000000000000000 ) ) ;
#85 = CIRCLE ( 'NONE', #321, 55.00000000000000000 ) ;
#86 = ORIENTED_EDGE ( 'NONE', *, *, #265, .F. ) ;
#87 = DIRECTION ( 'NONE',  ( -1.000000000000000000, 0.0000000000000000000, 0.0000000000000000000 ) ) ;
#88 = DIRECTION ( 'NONE',  ( -1.000000000000000000, 0.0000000000000000000, 0.0000000000000000000 ) ) ;
#89 = ORIENTED_EDGE ( 'NONE', *, *, #91, .T. ) ;
#90 = ADVANCED_FACE ( 'NONE', ( #95, #142 ), #3, .T. ) ;
#91 = EDGE_CURVE ( 'NONE', #267, #267, #26, .T. ) ;
#92 = DIRECTION ( 'NONE',  ( 0.0000000000000000000, 0.0000000000000000000, 1.000000000000000000 ) ) ;
#93 = CARTESIAN_POINT ( 'NONE',  ( 6.461248607994492400, 0.0000000000000000000, 0.0000000000000000000 ) ) ;
#94 = FACE_OUTER_BOUND ( 'NONE', #162, .T. ) ;
#95 = FACE_OUTER_BOUND ( 'NONE', #163, .T. ) ;
#96 = ORIENTED_EDGE ( 'NONE', *, *, #11, .F. ) ;
#97 = FACE_OUTER_BOUND ( 'NONE', #326, .T. ) ;
#98 = AXIS2_PLACEMENT_3D ( 'NONE', #238, #111, #240 ) ;
#99 = CARTESIAN_POINT ( 'NONE',  ( 10.00000000000000900, 0.0000000000000000000, -44.75000000000000000 ) ) ;
#100 =( LENGTH_UNIT ( ) NAMED_UNIT ( * ) SI_UNIT ( .MILLI., .METRE. ) );
#101 = CONICAL_SURFACE ( 'NONE', #312, 55.00000000000000000, 0.7853981633974482800 ) ;
#102 =( GEOMETRIC_REPRESENTATION_CONTEXT ( 3 ) GLOBAL_UNCERTAINTY_ASSIGNED_CONTEXT ( ( #216 ) ) GLOBAL_UNIT_ASSIGNED_CONTEXT ( ( #108, #258, #110 ) ) REPRESENTATION_CONTEXT ( 'NONE', 'WORKASPACE' ) );
#103 = APPLICATION_CONTEXT ( 'automotive_design' ) ;
#104 = CARTESIAN_POINT ( 'NONE',  ( 12.00000000000000400, 54.24999999999999300, 0.0000000000000000000 ) ) ;
#105 = APPLICATION_PROTOCOL_DEFINITION ( 'draft international standard', 'automotive_design', 1998, #172 ) ;
#106 = CIRCLE ( 'NONE', #157, 44.75000000000000000 ) ;
#107 = EDGE_LOOP ( 'NONE', ( #8 ) ) ;
#108 =( LENGTH_UNIT ( ) NAMED_UNIT ( * ) SI_UNIT ( .MILLI., .METRE. ) );
#109 = DIRECTION ( 'NONE',  ( -1.000000000000000000, 0.0000000000000000000, 0.0000000000000000000 ) ) ;
#110 =( NAMED_UNIT ( * ) SI_UNIT ( $, .STERADIAN. ) SOLID_ANGLE_UNIT ( ) );
#111 = DIRECTION ( 'NONE',  ( -1.000000000000000000, 0.0000000000000000000, 0.0000000000000000000 ) ) ;
#112 = CARTESIAN_POINT ( 'NONE',  ( -122.0721138323919900, 0.0000000000000000000, 0.0000000000000000000 ) ) ;
#113 = DIRECTION ( 'NONE',  ( 1.000000000000000000, 0.0000000000000000000, -0.0000000000000000000 ) ) ;
#114 = CIRCLE ( 'NONE', #292, 55.00000000000000700 ) ;
#115 = CARTESIAN_POINT ( 'NONE',  ( 4.500000000000003600, 0.0000000000000000000, 0.0000000000000000000 ) ) ;
#116 = AXIS2_PLACEMENT_3D ( 'NONE', #19, #113, #241 ) ;
#117 = ADVANCED_FACE ( 'NONE', ( #16, #208 ), #68, .T. ) ;
#118 = DIRECTION ( 'NONE',  ( -1.000000000000000000, 0.0000000000000000000, 0.0000000000000000000 ) ) ;
#119 = AXIS2_PLACEMENT_3D ( 'NONE', #93, #215, #273 ) ;
#120 = CONICAL_SURFACE ( 'NONE', #119, 54.66124860799443000, 0.7853981633974508300 ) ;
#121 = FACE_OUTER_BOUND ( 'NONE', #166, .T. ) ;
#122 = FILL_AREA_STYLE ('',( #160 ) ) ;
#123 = SURFACE_STYLE_FILL_AREA ( #122 ) ;
#124 = DIRECTION ( 'NONE',  ( 0.0000000000000000000, 0.0000000000000000000, 1.000000000000000000 ) ) ;
#125 = FACE_BOUND ( 'NONE', #209, .T. ) ;
#126 = DIRECTION ( 'NONE',  ( 0.0000000000000000000, 0.0000000000000000000, 1.000000000000000000 ) ) ;
#127 = DIRECTION ( 'NONE',  ( 0.0000000000000000000, 0.0000000000000000000, 1.000000000000000000 ) ) ;
#128 = COLOUR_RGB ( '',0.7921568627450980000, 0.8196078431372548800, 0.9333333333333333500 ) ;
#129 = EDGE_LOOP ( 'NONE', ( #245 ) ) ;
#130 = EDGE_LOOP ( 'NONE', ( #61 ) ) ;
#131 = ADVANCED_FACE ( 'NONE', ( #256, #207 ), #289, .F. ) ;
#132 = FACE_BOUND ( 'NONE', #58, .T. ) ;
#133 = EDGE_CURVE ( 'NONE', #184, #184, #15, .T. ) ;
#134 = CARTESIAN_POINT ( 'NONE',  ( 3.538751391987997200, 0.0000000000000000000, 54.66124860801187400 ) ) ;
#135 = ORIENTED_EDGE ( 'NONE', *, *, #30, .F. ) ;
#136 = CARTESIAN_POINT ( 'NONE',  ( 0.0000000000000000000, 0.0000000000000000000, 0.0000000000000000000 ) ) ;
#137 = CARTESIAN_POINT ( 'NONE',  ( 4.500000000000003600, 0.0000000000000000000, 41.50000000000000000 ) ) ;
#138 =( NAMED_UNIT ( * ) SI_UNIT ( $, .STERADIAN. ) SOLID_ANGLE_UNIT ( ) );
#139 = ORIENTED_EDGE ( 'NONE', *, *, #164, .T. ) ;
#140 = AXIS2_PLACEMENT_3D ( 'NONE', #263, #266, #69 ) ;
#141 =( LENGTH_UNIT ( ) NAMED_UNIT ( * ) SI_UNIT ( .MILLI., .METRE. ) );
#142 = FACE_BOUND ( 'NONE', #221, .T. ) ;
#143 = FILL_AREA_STYLE ('',( #320 ) ) ;
#144 = PRODUCT_DEFINITION_CONTEXT ( 'detailed design', #172, 'design' ) ;
#145 = MECHANICAL_DESIGN_GEOMETRIC_PRESENTATION_REPRESENTATION (  '', ( #199 ), #51 ) ;
#146 = FACE_OUTER_BOUND ( 'NONE', #175, .T. ) ;
#147 = DIRECTION ( 'NONE',  ( 0.0000000000000000000, 0.0000000000000000000, -1.000000000000000000 ) ) ;
#148 = CARTESIAN_POINT ( 'NONE',  ( 6.461248607994492400, 0.0000000000000000000, 0.0000000000000000000 ) ) ;
#149 = FACE_OUTER_BOUND ( 'NONE', #129, .T. ) ;
#150 = EDGE_LOOP ( 'NONE', ( #333 ) ) ;
#151 = DIRECTION ( 'NONE',  ( 0.0000000000000000000, 0.0000000000000000000, -1.000000000000000000 ) ) ;
#152 = DIRECTION ( 'NONE',  ( -1.000000000000000000, 0.0000000000000000000, 0.0000000000000000000 ) ) ;
#153 = EDGE_LOOP ( 'NONE', ( #4 ) ) ;
#154 = ADVANCED_FACE ( 'NONE', ( #165, #236 ), #311, .F. ) ;
#155 = VERTEX_POINT ( 'NONE', #222 ) ;
#156 = ADVANCED_FACE ( 'NONE', ( #225, #67 ), #324, .T. ) ;
#157 = AXIS2_PLACEMENT_3D ( 'NONE', #115, #71, #244 ) ;
#158 = ORIENTED_EDGE ( 'NONE', *, *, #64, .F. ) ;
#159 = ORIENTED_EDGE ( 'NONE', *, *, #91, .F. ) ;
#160 = FILL_AREA_STYLE_COLOUR ( '', #128 ) ;
#161 = VERTEX_POINT ( 'NONE', #27 ) ;
#162 = EDGE_LOOP ( 'NONE', ( #158 ) ) ;
#163 = EDGE_LOOP ( 'NONE', ( #190 ) ) ;
#164 = EDGE_CURVE ( 'NONE', #235, #235, #46, .T. ) ;
#165 = FACE_OUTER_BOUND ( 'NONE', #237, .T. ) ;
#166 = EDGE_LOOP ( 'NONE', ( #250 ) ) ;
#167 =( NAMED_UNIT ( * ) SI_UNIT ( $, .STERADIAN. ) SOLID_ANGLE_UNIT ( ) );
#168 = DIRECTION ( 'NONE',  ( -1.000000000000000000, 0.0000000000000000000, 0.0000000000000000000 ) ) ;
#169 = ORIENTED_EDGE ( 'NONE', *, *, #185, .F. ) ;
#170 = PRODUCT_DEFINITION_FORMATION_WITH_SPECIFIED_SOURCE ( 'ANY', '', #60, .NOT_KNOWN. ) ;
#171 = SURFACE_STYLE_USAGE ( .BOTH. , #227 ) ;
#172 = APPLICATION_CONTEXT ( 'automotive_design' ) ;
#173 = DIRECTION ( 'NONE',  ( -1.000000000000000000, 0.0000000000000000000, 0.0000000000000000000 ) ) ;
#174 = DIRECTION ( 'NONE',  ( 0.0000000000000000000, 0.0000000000000000000, 1.000000000000000000 ) ) ;
#175 = EDGE_LOOP ( 'NONE', ( #86 ) ) ;
#176 = DIRECTION ( 'NONE',  ( -1.000000000000000000, 0.0000000000000000000, 0.0000000000000000000 ) ) ;
#177 = AXIS2_PLACEMENT_3D ( 'NONE', #136, #293, #34 ) ;
#178 = CARTESIAN_POINT ( 'NONE',  ( 3.538751391987997200, 0.0000000000000000000, 0.0000000000000000000 ) ) ;
#179 = CARTESIAN_POINT ( 'NONE',  ( 10.00000000000000900, 0.0000000000000000000, 0.0000000000000000000 ) ) ;
#180 = CIRCLE ( 'NONE', #188, 54.25000000000000700 ) ;
#181 = EDGE_LOOP ( 'NONE', ( #169 ) ) ;
#182 = DIRECTION ( 'NONE',  ( 0.0000000000000000000, 0.0000000000000000000, 1.000000000000000000 ) ) ;
#183 = ADVANCED_FACE ( 'NONE', ( #94, #328 ), #210, .T. ) ;
#184 = VERTEX_POINT ( 'NONE', #285 ) ;
#185 = EDGE_CURVE ( 'NONE', #213, #213, #282, .T. ) ;
#186 = FACE_OUTER_BOUND ( 'NONE', #181, .T. ) ;
#187 = CARTESIAN_POINT ( 'NONE',  ( 0.7500000000000145400, 0.0000000000000000000, 55.00000000000000000 ) ) ;
#188 = AXIS2_PLACEMENT_3D ( 'NONE', #50, #75, #330 ) ;
#189 = CARTESIAN_POINT ( 'NONE',  ( 0.0000000000000000000, 0.0000000000000000000, 41.50000000000000000 ) ) ;
#190 = ORIENTED_EDGE ( 'NONE', *, *, #49, .T. ) ;
#191 = COLOUR_RGB ( '',0.7921568627450980000, 0.8196078431372548800, 0.9333333333333333500 ) ;
#192 = AXIS2_PLACEMENT_3D ( 'NONE', #112, #327, #151 ) ;
#193 = APPLICATION_PROTOCOL_DEFINITION ( 'draft international standard', 'automotive_design', 1998, #103 ) ;
#194 = ORIENTED_EDGE ( 'NONE', *, *, #228, .F. ) ;
#195 = CIRCLE ( 'NONE', #280, 52.50000000000000000 ) ;
#196 = EDGE_LOOP ( 'NONE', ( #159 ) ) ;
#197 = SURFACE_SIDE_STYLE ('',( #329 ) ) ;
#198 = CARTESIAN_POINT ( 'NONE',  ( 11.24999999999998200, 0.0000000000000000000, 0.0000000000000000000 ) ) ;
#199 = STYLED_ITEM ( 'NONE', ( #281 ), #254 ) ;
#200 = CARTESIAN_POINT ( 'NONE',  ( 12.00000000000001100, 0.0000000000000000000, 0.0000000000000000000 ) ) ;
#201 = AXIS2_PLACEMENT_3D ( 'NONE', #31, #168, #5 ) ;
#202 = DIRECTION ( 'NONE',  ( 1.000000000000000000, -0.0000000000000000000, -0.0000000000000000000 ) ) ;
#203 = UNCERTAINTY_MEASURE_WITH_UNIT (LENGTH_MEASURE( 1.000000000000000100E-005 ), #141, 'distance_accuracy_value', 'NONE');
#204 = CARTESIAN_POINT ( 'NONE',  ( 11.24999999999998200, 0.0000000000000000000, 0.0000000000000000000 ) ) ;
#205 = STYLED_ITEM ( 'NONE', ( #33 ), #45 ) ;
#206 = DIRECTION ( 'NONE',  ( 1.000000000000000000, 0.0000000000000000000, -0.0000000000000000000 ) ) ;
#207 = FACE_OUTER_BOUND ( 'NONE', #231, .T. ) ;
#208 = FACE_OUTER_BOUND ( 'NONE', #315, .T. ) ;
#209 = EDGE_LOOP ( 'NONE', ( #63 ) ) ;
#210 = PLANE ( 'NONE',  #116 ) ;
#211 = ORIENTED_EDGE ( 'NONE', *, *, #64, .T. ) ;
#212 = DIRECTION ( 'NONE',  ( 0.0000000000000000000, 0.0000000000000000000, -1.000000000000000000 ) ) ;
#213 = VERTEX_POINT ( 'NONE', #288 ) ;
#214 = CARTESIAN_POINT ( 'NONE',  ( 12.00000000000001100, 0.0000000000000000000, 0.0000000000000000000 ) ) ;
#215 = DIRECTION ( 'NONE',  ( 1.000000000000000000, -0.0000000000000000000, -0.0000000000000000000 ) ) ;
#216 = UNCERTAINTY_MEASURE_WITH_UNIT (LENGTH_MEASURE( 1.000000000000000100E-005 ), #108, 'distance_accuracy_value', 'NONE');
#217 = CIRCLE ( 'NONE', #223, 54.66124860801187400 ) ;
#218 = AXIS2_PLACEMENT_3D ( 'NONE', #104, #206, #40 ) ;
#219 = ORIENTED_EDGE ( 'NONE', *, *, #232, .T. ) ;
#220 = CARTESIAN_POINT ( 'NONE',  ( 6.800000000000070000, 0.0000000000000000000, 55.00000000000000700 ) ) ;
#221 = EDGE_LOOP ( 'NONE', ( #53 ) ) ;
#222 = CARTESIAN_POINT ( 'NONE',  ( 10.00000000000000900, 0.0000000000000000000, 52.50000000000000000 ) ) ;
#223 = AXIS2_PLACEMENT_3D ( 'NONE', #178, #176, #174 ) ;
#224 = PRESENTATION_LAYER_ASSIGNMENT (  '', '', ( #205 ) ) ;
#225 = FACE_OUTER_BOUND ( 'NONE', #130, .T. ) ;
#226 = FACE_BOUND ( 'NONE', #257, .T. ) ;
#227 = SURFACE_SIDE_STYLE ('',( #123 ) ) ;
#228 = EDGE_CURVE ( 'NONE', #70, #70, #32, .T. ) ;
#229 = CYLINDRICAL_SURFACE ( 'NONE', #308, 41.50000000000000000 ) ;
#230 = AXIS2_PLACEMENT_3D ( 'NONE', #43, #242, #249 ) ;
#231 = EDGE_LOOP ( 'NONE', ( #135 ) ) ;
#232 = EDGE_CURVE ( 'NONE', #255, #255, #106, .T. ) ;
#233 = CARTESIAN_POINT ( 'NONE',  ( 10.00000000000000900, 0.0000000000000000000, 0.0000000000000000000 ) ) ;
#234 = AXIS2_PLACEMENT_3D ( 'NONE', #309, #24, #279 ) ;
#235 = VERTEX_POINT ( 'NONE', #99 ) ;
#236 = FACE_OUTER_BOUND ( 'NONE', #290, .T. ) ;
#237 = EDGE_LOOP ( 'NONE', ( #74 ) ) ;
#238 = CARTESIAN_POINT ( 'NONE',  ( 11.99999999999999500, 0.0000000000000000000, 0.0000000000000000000 ) ) ;
#239 = EDGE_LOOP ( 'NONE', ( #211 ) ) ;
#240 = DIRECTION ( 'NONE',  ( 0.0000000000000000000, 0.0000000000000000000, 1.000000000000000000 ) ) ;
#241 = DIRECTION ( 'NONE',  ( -0.0000000000000000000, 0.0000000000000000000, -1.000000000000000000 ) ) ;
#242 = DIRECTION ( 'NONE',  ( -1.000000000000000000, 0.0000000000000000000, 0.0000000000000000000 ) ) ;
#243 = CIRCLE ( 'NONE', #41, 52.50000000000000000 ) ;
#244 = DIRECTION ( 'NONE',  ( 0.0000000000000000000, 0.0000000000000000000, 1.000000000000000000 ) ) ;
#245 = ORIENTED_EDGE ( 'NONE', *, *, #78, .F. ) ;
#246 = CARTESIAN_POINT ( 'NONE',  ( 12.00000000000001100, 0.0000000000000000000, 0.0000000000000000000 ) ) ;
#247 = EDGE_LOOP ( 'NONE', ( #96 ) ) ;
#248 = AXIS2_PLACEMENT_3D ( 'NONE', #200, #12, #65 ) ;
#249 = DIRECTION ( 'NONE',  ( 0.0000000000000000000, 0.0000000000000000000, 1.000000000000000000 ) ) ;
#250 = ORIENTED_EDGE ( 'NONE', *, *, #185, .T. ) ;
#251 =( NAMED_UNIT ( * ) PLANE_ANGLE_UNIT ( ) SI_UNIT ( $, .RADIAN. ) );
#252 = ORIENTED_EDGE ( 'NONE', *, *, #133, .T. ) ;
#253 = AXIS2_PLACEMENT_3D ( 'NONE', #204, #42, #269 ) ;
#254 = ADVANCED_BREP_SHAPE_REPRESENTATION ( 'BS1ISOK8089 FULLVAC', ( #45, #177 ), #1 ) ;
#255 = VERTEX_POINT ( 'NONE', #56 ) ;
#256 = FACE_OUTER_BOUND ( 'NONE', #322, .T. ) ;
#257 = EDGE_LOOP ( 'NONE', ( #89 ) ) ;
#258 =( NAMED_UNIT ( * ) PLANE_ANGLE_UNIT ( ) SI_UNIT ( $, .RADIAN. ) );
#259 = AXIS2_PLACEMENT_3D ( 'NONE', #179, #47, #212 ) ;
#260 = ORIENTED_EDGE ( 'NONE', *, *, #133, .F. ) ;
#261 = CARTESIAN_POINT ( 'NONE',  ( 3.199999999999869600, 0.0000000000000000000, 0.0000000000000000000 ) ) ;
#262 = DIRECTION ( 'NONE',  ( -1.000000000000000000, 0.0000000000000000000, 0.0000000000000000000 ) ) ;
#263 = CARTESIAN_POINT ( 'NONE',  ( 4.999999999993267600, 0.0000000000000000000, 0.0000000000000000000 ) ) ;
#264 = AXIS2_PLACEMENT_3D ( 'NONE', #198, #262, #126 ) ;
#265 = EDGE_CURVE ( 'NONE', #54, #54, #195, .T. ) ;
#266 = DIRECTION ( 'NONE',  ( -1.000000000000000000, 0.0000000000000000000, 0.0000000000000000000 ) ) ;
#267 = VERTEX_POINT ( 'NONE', #137 ) ;
#268 = FACE_BOUND ( 'NONE', #28, .T. ) ;
#269 = DIRECTION ( 'NONE',  ( 0.0000000000000000000, 0.0000000000000000000, 1.000000000000000000 ) ) ;
#270 = ORIENTED_EDGE ( 'NONE', *, *, #78, .T. ) ;
#271 = ADVANCED_FACE ( 'NONE', ( #306, #146 ), #77, .F. ) ;
#272 = EDGE_LOOP ( 'NONE', ( #139 ) ) ;
#273 = DIRECTION ( 'NONE',  ( 0.0000000000000000000, 0.0000000000000000000, -1.000000000000000000 ) ) ;
#274 = CYLINDRICAL_SURFACE ( 'NONE', #234, 55.00000000000000000 ) ;
#275 = FACE_OUTER_BOUND ( 'NONE', #107, .T. ) ;
#276 = ADVANCED_FACE ( 'NONE', ( #97, #275 ), #274, .T. ) ;
#277 = CARTESIAN_POINT ( 'NONE',  ( 6.800000000000070000, 0.0000000000000000000, 0.0000000000000000000 ) ) ;
#278 = PRESENTATION_LAYER_ASSIGNMENT (  '', '', ( #199 ) ) ;
#279 = DIRECTION ( 'NONE',  ( 0.0000000000000000000, 0.0000000000000000000, 1.000000000000000000 ) ) ;
#280 = AXIS2_PLACEMENT_3D ( 'NONE', #246, #88, #307 ) ;
#281 = PRESENTATION_STYLE_ASSIGNMENT (( #171 ) ) ;
#282 = CIRCLE ( 'NONE', #253, 55.00000000000000000 ) ;
#283 = CONICAL_SURFACE ( 'NONE', #264, 55.00000000000000000, 0.7853981633974447300 ) ;
#284 = ORIENTED_EDGE ( 'NONE', *, *, #316, .F. ) ;
#285 = CARTESIAN_POINT ( 'NONE',  ( 11.99999999999999500, 0.0000000000000000000, 54.24999999999999300 ) ) ;
#286 = AXIS2_PLACEMENT_3D ( 'NONE', #17, #152, #325 ) ;
#287 = CARTESIAN_POINT ( 'NONE',  ( 6.461248607994492400, 0.0000000000000000000, 54.66124860799443000 ) ) ;
#288 = CARTESIAN_POINT ( 'NONE',  ( 11.24999999999998200, 0.0000000000000000000, 55.00000000000000000 ) ) ;
#289 = TOROIDAL_SURFACE ( 'NONE', #140, 55.00000000003576200, 1.499999999998487000 ) ;
#290 = EDGE_LOOP ( 'NONE', ( #48 ) ) ;
#291 = PRODUCT_CONTEXT ( 'NONE', #103, 'mechanical' ) ;
#292 = AXIS2_PLACEMENT_3D ( 'NONE', #277, #314, #334 ) ;
#293 = DIRECTION ( 'NONE',  ( 0.0000000000000000000, 0.0000000000000000000, 1.000000000000000000 ) ) ;
#294 = DIRECTION ( 'NONE',  ( -1.000000000000000000, 0.0000000000000000000, 0.0000000000000000000 ) ) ;
#295 = EDGE_LOOP ( 'NONE', ( #284 ) ) ;
#296 = DIRECTION ( 'NONE',  ( 0.0000000000000000000, 0.0000000000000000000, 1.000000000000000000 ) ) ;
#297 = VERTEX_POINT ( 'NONE', #220 ) ;
#298 = CARTESIAN_POINT ( 'NONE',  ( 4.500000000000003600, 0.0000000000000000000, 0.0000000000000000000 ) ) ;
#299 = DIRECTION ( 'NONE',  ( 0.0000000000000000000, 0.0000000000000000000, 1.000000000000000000 ) ) ;
#300 = DIRECTION ( 'NONE',  ( 0.0000000000000000000, 0.0000000000000000000, 1.000000000000000000 ) ) ;
#301 = ADVANCED_FACE ( 'NONE', ( #23, #132 ), #120, .T. ) ;
#302 = CYLINDRICAL_SURFACE ( 'NONE', #248, 55.00000000000000700 ) ;
#303 = ORIENTED_EDGE ( 'NONE', *, *, #11, .T. ) ;
#304 = DIRECTION ( 'NONE',  ( -1.000000000000000000, 0.0000000000000000000, 0.0000000000000000000 ) ) ;
#305 = ADVANCED_FACE ( 'NONE', ( #35, #323 ), #229, .F. ) ;
#306 = FACE_OUTER_BOUND ( 'NONE', #239, .T. ) ;
#307 = DIRECTION ( 'NONE',  ( 0.0000000000000000000, 0.0000000000000000000, 1.000000000000000000 ) ) ;
#308 = AXIS2_PLACEMENT_3D ( 'NONE', #214, #118, #92 ) ;
#309 = CARTESIAN_POINT ( 'NONE',  ( 12.00000000000001100, 0.0000000000000000000, 0.0000000000000000000 ) ) ;
#310 = EDGE_CURVE ( 'NONE', #161, #161, #180, .T. ) ;
#311 = CYLINDRICAL_SURFACE ( 'NONE', #192, 44.75000000000000000 ) ;
#312 = AXIS2_PLACEMENT_3D ( 'NONE', #38, #294, #296 ) ;
#313 = VERTEX_POINT ( 'NONE', #187 ) ;
#314 = DIRECTION ( 'NONE',  ( -1.000000000000000000, 0.0000000000000000000, 0.0000000000000000000 ) ) ;
#315 = EDGE_LOOP ( 'NONE', ( #260 ) ) ;
#316 = EDGE_CURVE ( 'NONE', #297, #297, #114, .T. ) ;
#317 = MECHANICAL_DESIGN_GEOMETRIC_PRESENTATION_REPRESENTATION (  '', ( #205 ), #102 ) ;
#318 = VERTEX_POINT ( 'NONE', #57 ) ;
#319 = CIRCLE ( 'NONE', #72, 55.00000000000000000 ) ;
#320 = FILL_AREA_STYLE_COLOUR ( '', #191 ) ;
#321 = AXIS2_PLACEMENT_3D ( 'NONE', #261, #109, #299 ) ;
#322 = EDGE_LOOP ( 'NONE', ( #7 ) ) ;
#323 = FACE_OUTER_BOUND ( 'NONE', #196, .T. ) ;
#324 = PLANE ( 'NONE',  #286 ) ;
#325 = DIRECTION ( 'NONE',  ( 0.0000000000000000000, 0.0000000000000000000, 1.000000000000000000 ) ) ;
#326 = EDGE_LOOP ( 'NONE', ( #270 ) ) ;
#327 = DIRECTION ( 'NONE',  ( 1.000000000000000000, -0.0000000000000000000, -0.0000000000000000000 ) ) ;
#328 = FACE_BOUND ( 'NONE', #272, .T. ) ;
#329 = SURFACE_STYLE_FILL_AREA ( #143 ) ;
#330 = DIRECTION ( 'NONE',  ( 0.0000000000000000000, 0.0000000000000000000, 1.000000000000000000 ) ) ;
#331 = VERTEX_POINT ( 'NONE', #189 ) ;
#332 = FACE_OUTER_BOUND ( 'NONE', #81, .T. ) ;
#333 = ORIENTED_EDGE ( 'NONE', *, *, #265, .T. ) ;
#334 = DIRECTION ( 'NONE',  ( 0.0000000000000000000, 0.0000000000000000000, 1.000000000000000000 ) ) ;
ENDSEC;
END-ISO-10303-21;
